  0
SECTION
  2
HEADER
  9
$ACADVER
  1
AC1015
  9
$ACADMAINTVER
 70
     6
  9
$DWGCODEPAGE
  3
ANSI_1254
  9
$INSBASE
 10
0.0
 20
0.0
 30
0.0
  9
$EXTMIN
 10
0.0
 20
0.0
 30
0.0
  9
$EXTMAX
 10
279.4
 20
215.9
 30
0.0
  9
$LIMMIN
 10
0.0
 20
0.0
  9
$LIMMAX
 10
279.4
 20
215.9
  9
$ORTHOMODE
 70
     0
  9
$REGENMODE
 70
     1
  9
$FILLMODE
 70
     1
  9
$QTEXTMODE
 70
     0
  9
$MIRRTEXT
 70
     1
  9
$LTSCALE
 40
1.0
  9
$ATTMODE
 70
     1
  9
$TEXTSIZE
 40
3.5
  9
$TRACEWID
 40
1.0
  9
$TEXTSTYLE
  7
Standard
  9
$CLAYER
  8
0
  9
$CELTYPE
  6
ByLayer
  9
$CECOLOR
 62
   256
  9
$CELTSCALE
 40
1.0
  9
$DISPSILH
 70
     0
  9
$DIMSCALE
 40
1.0
  9
$DIMASZ
 40
3.5
  9
$DIMEXO
 40
1.0
  9
$DIMDLI
 40
3.75
  9
$DIMRND
 40
0.0
  9
$DIMDLE
 40
0.0
  9
$DIMEXE
 40
1.0
  9
$DIMTP
 40
0.0
  9
$DIMTM
 40
0.0
  9
$DIMTXT
 40
3.5
  9
$DIMCEN
 40
2.5
  9
$DIMTSZ
 40
0.0
  9
$DIMTOL
 70
     0
  9
$DIMLIM
 70
     0
  9
$DIMTIH
 70
     1
  9
$DIMTOH
 70
     1
  9
$DIMSE1
 70
     0
  9
$DIMSE2
 70
     0
  9
$DIMTAD
 70
     1
  9
$DIMZIN
 70
     0
  9
$DIMBLK
  1

  9
$DIMASO
 70
     1
  9
$DIMSHO
 70
     1
  9
$DIMPOST
  1

  9
$DIMAPOST
  1

  9
$DIMALT
 70
     0
  9
$DIMALTD
 70
     3
  9
$DIMALTF
 40
0.0393700787
  9
$DIMLFAC
 40
1.0
  9
$DIMTOFL
 70
     1
  9
$DIMTVP
 40
0.0
  9
$DIMTIX
 70
     0
  9
$DIMSOXD
 70
     0
  9
$DIMSAH
 70
     0
  9
$DIMBLK1
  1

  9
$DIMBLK2
  1

  9
$DIMSTYLE
  2
ISO-25
  9
$DIMCLRD
 70
     0
  9
$DIMCLRE
 70
     0
  9
$DIMCLRT
 70
     0
  9
$DIMTFAC
 40
1.0
  9
$DIMGAP
 40
1.524
  9
$DIMJUST
 70
     0
  9
$DIMSD1
 70
     0
  9
$DIMSD2
 70
     0
  9
$DIMTOLJ
 70
     0
  9
$DIMTZIN
 70
     0
  9
$DIMALTZ
 70
     0
  9
$DIMALTTZ
 70
     0
  9
$DIMUPT
 70
     0
  9
$DIMDEC
 70
     2
  9
$DIMTDEC
 70
     2
  9
$DIMALTU
 70
     2
  9
$DIMALTTD
 70
     3
  9
$DIMTXSTY
  7
Standard
  9
$DIMAUNIT
 70
     0
  9
$DIMADEC
 70
     2
  9
$DIMALTRND
 40
0.0
  9
$DIMAZIN
 70
     0
  9
$DIMDSEP
 70
    44
  9
$DIMATFIT
 70
     3
  9
$DIMFRAC
 70
     0
  9
$DIMLDRBLK
  1

  9
$DIMLUNIT
 70
     2
  9
$DIMLWD
 70
    -2
  9
$DIMLWE
 70
    -2
  9
$DIMTMOVE
 70
     0
  9
$LUNITS
 70
     2
  9
$LUPREC
 70
     2
  9
$SKETCHINC
 40
1.0
  9
$FILLETRAD
 40
10.0
  9
$AUNITS
 70
     0
  9
$AUPREC
 70
     2
  9
$MENU
  1
.
  9
$ELEVATION
 40
0.0
  9
$PELEVATION
 40
0.0
  9
$THICKNESS
 40
0.0
  9
$LIMCHECK
 70
     0
  9
$CHAMFERA
 40
0.0
  9
$CHAMFERB
 40
0.0
  9
$CHAMFERC
 40
0.0
  9
$CHAMFERD
 40
0.0
  9
$SKPOLY
 70
     0
  9
$TDCREATE
 40
2460608.530296412
  9
$TDUCREATE
 40
2460608.405296412
  9
$TDUPDATE
 40
2460608.530296412
  9
$TDUUPDATE
 40
2460608.405296412
  9
$TDINDWG
 40
0.0000000116
  9
$TDUSRTIMER
 40
0.0000000116
  9
$USRTIMER
 70
     1
  9
$ANGBASE
 50
0.0
  9
$ANGDIR
 70
     0
  9
$PDMODE
 70
     0
  9
$PDSIZE
 40
-1.0
  9
$PLINEWID
 40
0.0
  9
$SPLFRAME
 70
     0
  9
$SPLINETYPE
 70
     6
  9
$SPLINESEGS
 70
     8
  9
$HANDSEED
  5
D2
  9
$SURFTAB1
 70
     6
  9
$SURFTAB2
 70
     6
  9
$SURFTYPE
 70
     6
  9
$SURFU
 70
     6
  9
$SURFV
 70
     6
  9
$UCSBASE
  2

  9
$UCSNAME
  2

  9
$UCSORG
 10
0.0
 20
0.0
 30
0.0
  9
$UCSXDIR
 10
1.0
 20
0.0
 30
0.0
  9
$UCSYDIR
 10
0.0
 20
1.0
 30
0.0
  9
$UCSORTHOREF
  2

  9
$UCSORTHOVIEW
 70
     0
  9
$UCSORGTOP
 10
0.0
 20
0.0
 30
0.0
  9
$UCSORGBOTTOM
 10
0.0
 20
0.0
 30
0.0
  9
$UCSORGLEFT
 10
0.0
 20
0.0
 30
0.0
  9
$UCSORGRIGHT
 10
0.0
 20
0.0
 30
0.0
  9
$UCSORGFRONT
 10
0.0
 20
0.0
 30
0.0
  9
$UCSORGBACK
 10
0.0
 20
0.0
 30
0.0
  9
$PUCSBASE
  2

  9
$PUCSNAME
  2

  9
$PUCSORG
 10
0.0
 20
0.0
 30
0.0
  9
$PUCSXDIR
 10
1.0
 20
0.0
 30
0.0
  9
$PUCSYDIR
 10
0.0
 20
1.0
 30
0.0
  9
$PUCSORTHOREF
  2

  9
$PUCSORTHOVIEW
 70
     0
  9
$PUCSORGTOP
 10
0.0
 20
0.0
 30
0.0
  9
$PUCSORGBOTTOM
 10
0.0
 20
0.0
 30
0.0
  9
$PUCSORGLEFT
 10
0.0
 20
0.0
 30
0.0
  9
$PUCSORGRIGHT
 10
0.0
 20
0.0
 30
0.0
  9
$PUCSORGFRONT
 10
0.0
 20
0.0
 30
0.0
  9
$PUCSORGBACK
 10
0.0
 20
0.0
 30
0.0
  9
$USERI1
 70
     0
  9
$USERI2
 70
     0
  9
$USERI3
 70
     0
  9
$USERI4
 70
     0
  9
$USERI5
 70
     0
  9
$USERR1
 40
0.0
  9
$USERR2
 40
0.0
  9
$USERR3
 40
0.0
  9
$USERR4
 40
0.0
  9
$USERR5
 40
0.0
  9
$WORLDVIEW
 70
     1
  9
$SHADEDGE
 70
     3
  9
$SHADEDIF
 70
    70
  9
$TILEMODE
 70
     1
  9
$MAXACTVP
 70
    64
  9
$PINSBASE
 10
0.0
 20
0.0
 30
0.0
  9
$PLIMCHECK
 70
     0
  9
$PEXTMIN
 10
1.0000000000E+20
 20
1.0000000000E+20
 30
1.0000000000E+20
  9
$PEXTMAX
 10
-1.0000000000E+20
 20
-1.0000000000E+20
 30
-1.0000000000E+20
  9
$PLIMMIN
 10
0.0
 20
0.0
  9
$PLIMMAX
 10
420.0
 20
297.0
  9
$UNITMODE
 70
     0
  9
$VISRETAIN
 70
     1
  9
$PLINEGEN
 70
     0
  9
$PSLTSCALE
 70
     1
  9
$TREEDEPTH
 70
  3020
  9
$CMLSTYLE
  2
Standard
  9
$CMLJUST
 70
     0
  9
$CMLSCALE
 40
20.0
  9
$PROXYGRAPHICS
 70
     1
  9
$MEASUREMENT
 70
     1
  9
$CELWEIGHT
370
    -1
  9
$ENDCAPS
280
     0
  9
$JOINSTYLE
280
     0
  9
$LWDISPLAY
290
     1
  9
$INSUNITS
 70
     4
  9
$HYPERLINKBASE
  1

  9
$STYLESHEET
  1

  9
$XEDIT
290
     1
  9
$CEPSNTYPE
380
     0
  9
$PSTYLEMODE
290
     1
  9
$FINGERPRINTGUID
  2
{b8759081-8ed8-47c5-b08f-668377b22faa}
  9
$VERSIONGUID
  2
{FAEB1C32-E019-11D5-929B-00C0DF256EC4}
  9
$EXTNAMES
290
     1
  9
$PSVPSCALE
 40
0.0
  9
$OLESTARTUP
290
     0
  0
ENDSEC
  0
SECTION
  2
CLASSES
  0
CLASS
  1
ACDBDICTIONARYWDFLT
  2
AcDbDictionaryWithDefault
  3
ObjectDBX Classes
 90
        0
280
     0
281
     0
  0
CLASS
  1
VISUALSTYLE
  2
AcDbVisualStyle
  3
ObjectDBX Classes
 90
     4095
280
     0
281
     0
  0
CLASS
  1
MATERIAL
  2
AcDbMaterial
  3
ObjectDBX Classes
 90
     1153
280
     0
281
     0
  0
CLASS
  1
SCALE
  2
AcDbScale
  3
ObjectDBX Classes
 90
     1153
280
     0
281
     0
  0
CLASS
  1
TABLESTYLE
  2
AcDbTableStyle
  3
ObjectDBX Classes
 90
     4095
280
     0
281
     0
  0
CLASS
  1
MLEADERSTYLE
  2
AcDbMLeaderStyle
  3
ACDB_MLEADERSTYLE_CLASS
 90
     4095
280
     0
281
     0
  0
CLASS
  1
SUN
  2
AcDbSun
  3
SCENEOE
 90
     1153
280
     0
281
     0
  0
CLASS
  1
ACDBPLACEHOLDER
  2
AcDbPlaceHolder
  3
ObjectDBX Classes
 90
        0
280
     0
281
     0
  0
CLASS
  1
LAYOUT
  2
AcDbLayout
  3
ObjectDBX Classes
 90
        0
280
     0
281
     0
  0
ENDSEC
  0
SECTION
  2
TABLES
  0
TABLE
  2
VPORT
  5
8
330
0
100
AcDbSymbolTable
 70
     1
  0
VPORT
  5
29
330
8
100
AcDbSymbolTableRecord
100
AcDbViewportTableRecord
  2
*Active
 70
     0
 10
0.0
 20
0.0
 11
1.0
 21
1.0
 12
139.7
 22
107.95
 13
0.0
 23
0.0
 14
10.0
 24
10.0
 15
10.0
 25
10.0
 16
0.0
 26
0.0
 36
1.0
 17
0.0
 27
0.0
 37
0.0
 40
215.9
 41
1.2941176471
 42
50.0
 43
0.0
 44
0.0
 50
0.0
 51
0.0
 71
     0
 72
  2000
 73
     1
 74
     3
 75
     0
 76
     0
 77
     0
 78
     0
281
     0
 65
     1
110
0.0
120
0.0
130
0.0
111
1.0
121
0.0
131
0.0
112
0.0
122
1.0
132
0.0
 79
     0
146
0.0
  0
ENDTAB
  0
TABLE
  2
LTYPE
  5
5
330
0
100
AcDbSymbolTable
 70
     6
  0
LTYPE
  5
14
330
5
100
AcDbSymbolTableRecord
100
AcDbLinetypeTableRecord
  2
ByBlock
 70
     0
  3

 72
    65
 73
     0
 40
0.0
  0
LTYPE
  5
15
330
5
100
AcDbSymbolTableRecord
100
AcDbLinetypeTableRecord
  2
ByLayer
 70
     0
  3

 72
    65
 73
     0
 40
0.0
  0
LTYPE
  5
16
330
5
100
AcDbSymbolTableRecord
100
AcDbLinetypeTableRecord
  2
Continuous
 70
     0
  3
Solid line
 72
    65
 73
     0
 40
0.0
  0
LTYPE
  5
6E
330
5
100
AcDbSymbolTableRecord
100
AcDbLinetypeTableRecord
  2
HIDDEN
 70
     0
  3
Hidden __ __ __ __ __ __ __ __ __ __ __ __ __ __
 72
    65
 73
     2
 40
1.905
 49
1.27
 74
     0
 49
-0.635
 74
     0
  0
LTYPE
  5
6F
330
5
100
AcDbSymbolTableRecord
100
AcDbLinetypeTableRecord
  2
PHANTOM
 70
     0
  3
Phantom ______  __  __  ______  __  __  ______
 72
    65
 73
     6
 40
12.7
 49
6.35
 74
     0
 49
-1.27
 74
     0
 49
1.27
 74
     0
 49
-1.27
 74
     0
 49
1.27
 74
     0
 49
-1.27
 74
     0
  0
LTYPE
  5
70
330
5
100
AcDbSymbolTableRecord
100
AcDbLinetypeTableRecord
  2
CENTER
 70
     0
  3
Center ____ _ ____ _ ____ _ ____ _ ____ _ ____
 72
    65
 73
     4
 40
10.16
 49
6.35
 74
     0
 49
-1.27
 74
     0
 49
1.27
 74
     0
 49
-1.27
 74
     0
  0
LTYPE
  5
71
330
5
100
AcDbSymbolTableRecord
100
AcDbLinetypeTableRecord
  2
CENTERX2
 70
     0
  3
Center (2x) ________  __  ________  __  _____
 72
    65
 73
     4
 40
20.32
 49
12.7
 74
     0
 49
-2.54
 74
     0
 49
2.54
 74
     0
 49
-2.54
 74
     0
  0
LTYPE
  5
72
330
5
100
AcDbSymbolTableRecord
100
AcDbLinetypeTableRecord
  2
DOT2
 70
     0
  3
Dot (.5x) ........................................
 72
    65
 73
     2
 40
0.635
 49
0.0
 74
     0
 49
-0.635
 74
     0
  0
ENDTAB
  0
TABLE
  2
LAYER
  5
2
330
0
100
AcDbSymbolTable
 70
    17
  0
LAYER
  5
10
330
2
100
AcDbSymbolTableRecord
100
AcDbLayerTableRecord
  2
0
 70
     0
 62
     7
  6
Continuous
370
    -3
390
F
  0
LAYER
  5
73
330
2
100
AcDbSymbolTableRecord
100
AcDbLayerTableRecord
  2
FORMAT
 70
     0
 62
     7
  6
Continuous
370
    -3
390
F
  0
LAYER
  5
74
330
2
100
AcDbSymbolTableRecord
100
AcDbLayerTableRecord
  2
YARDIMCI_GEOMETRI
 70
     0
 62
    -6
  6
Continuous
290
     0
370
    -3
390
F
  0
LAYER
  5
75
330
2
100
AcDbSymbolTableRecord
100
AcDbLayerTableRecord
  2
SAYFA_CERCEVESI
 70
     0
 62
     7
  6
Continuous
370
    25
390
F
  0
LAYER
  5
76
330
2
100
AcDbSymbolTableRecord
100
AcDbLayerTableRecord
  2
ANTET
 70
     0
 62
     7
  6
Continuous
370
    -3
390
F
  0
LAYER
  5
77
330
2
100
AcDbSymbolTableRecord
100
AcDbLayerTableRecord
  2
OLCU
 70
     0
 62
   150
  6
Continuous
370
    -3
390
F
  0
LAYER
  5
78
330
2
100
AcDbSymbolTableRecord
100
AcDbLayerTableRecord
  2
METIN
 70
     0
 62
    96
  6
Continuous
370
    -3
390
F
  0
LAYER
  5
79
330
2
100
AcDbSymbolTableRecord
100
AcDbLayerTableRecord
  2
BALON
 70
     0
 62
     5
  6
Continuous
370
    -3
390
F
  0
LAYER
  5
7A
330
2
100
AcDbSymbolTableRecord
100
AcDbLayerTableRecord
  2
VURGU
 70
     0
 62
     7
  6
Continuous
370
    -3
390
F
  0
LAYER
  5
7B
330
2
100
AcDbSymbolTableRecord
100
AcDbLayerTableRecord
  2
SILIK
 70
     0
 62
     7
  6
Continuous
370
    -3
390
F
  0
LAYER
  5
7C
330
2
100
AcDbSymbolTableRecord
100
AcDbLayerTableRecord
  2
MODEL
 70
     0
 62
     7
  6
Continuous
370
    -3
390
F
  0
LAYER
  5
7D
330
2
100
AcDbSymbolTableRecord
100
AcDbLayerTableRecord
  2
DETAYLANDıRMA
 70
     0
 62
   190
  6
Continuous
370
    -3
390
F
  0
LAYER
  5
7E
330
2
100
AcDbSymbolTableRecord
100
AcDbLayerTableRecord
  2
TOLERANS
 70
     0
 62
   230
  6
Continuous
370
    -3
390
F
  0
LAYER
  5
7F
330
2
100
AcDbSymbolTableRecord
100
AcDbLayerTableRecord
  2
MERKEZ_CIZGILERI
 70
     0
 62
    30
  6
Continuous
370
    -3
390
F
  0
LAYER
  5
80
330
2
100
AcDbSymbolTableRecord
100
AcDbLayerTableRecord
  2
KESIT-DETAY_CIZGILERI
 70
     0
 62
     7
  6
Continuous
370
    -3
390
F
  0
LAYER
  5
81
330
2
100
AcDbSymbolTableRecord
100
AcDbLayerTableRecord
  2
\U+041E\U+0421\U+0415\U+0412\U+042B\U+0415
 70
     0
 62
     7
  6
Continuous
370
    -3
390
F
  0
LAYER
  5
82
330
2
100
AcDbSymbolTableRecord
100
AcDbLayerTableRecord
  2
\U+0412\U+041E\U+0414\U+042F\U+041D\U+042B\U+0415_\U+0417\U+041D\U+0410\U+041A\U+0418
 70
     0
 62
    11
  6
Continuous
370
    -3
390
F
  0
ENDTAB
  0
TABLE
  2
STYLE
  5
3
330
0
100
AcDbSymbolTable
 70
     1
  0
STYLE
  5
11
330
3
100
AcDbSymbolTableRecord
100
AcDbTextStyleTableRecord
  2
Standard
 70
     0
 40
0.0
 41
1.0
 50
0.0
 71
     0
 42
3.5
  3
txt
  4

  0
ENDTAB
  0
TABLE
  2
VIEW
  5
6
330
0
100
AcDbSymbolTable
 70
     0
  0
ENDTAB
  0
TABLE
  2
UCS
  5
7
330
0
100
AcDbSymbolTable
 70
     0
  0
ENDTAB
  0
TABLE
  2
APPID
  5
9
330
0
100
AcDbSymbolTable
 70
     1
  0
APPID
  5
12
330
9
100
AcDbSymbolTableRecord
100
AcDbRegAppTableRecord
  2
ACAD
 70
     0
  0
ENDTAB
  0
TABLE
  2
DIMSTYLE
  5
A
330
0
100
AcDbSymbolTable
 70
     1
100
AcDbDimStyleTable
  0
DIMSTYLE
105
27
330
A
100
AcDbSymbolTableRecord
100
AcDbDimStyleTableRecord
  2
ISO-25
 70
     0
 41
2.5
 42
0.625
 43
3.75
 44
1.25
 73
     0
 74
     0
 77
     1
 78
     8
140
2.5
141
2.5
143
0.0393700787
147
0.625
171
     3
172
     1
178
     0
271
     2
272
     2
274
     3
278
    44
283
     0
284
     8
340
11
  0
ENDTAB
  0
TABLE
  2
BLOCK_RECORD
  5
1
330
0
100
AcDbSymbolTable
 70
     3
  0
BLOCK_RECORD
  5
1F
330
1
100
AcDbSymbolTableRecord
100
AcDbBlockTableRecord
  2
*Model_Space
340
22
  0
BLOCK_RECORD
  5
1B
330
1
100
AcDbSymbolTableRecord
100
AcDbBlockTableRecord
  2
*Paper_Space
340
1E
  0
BLOCK_RECORD
  5
23
330
1
100
AcDbSymbolTableRecord
100
AcDbBlockTableRecord
  2
*Paper_Space0
340
26
  0
BLOCK_RECORD
  5
88
330
1
100
AcDbSymbolTableRecord
100
AcDbBlockTableRecord
  2
SW_CENTERMARKSYMBOL_0
340
0
102
{BLKREFS
331
93
102
}
  0
BLOCK_RECORD
  5
9E
330
1
100
AcDbSymbolTableRecord
100
AcDbBlockTableRecord
  2
SW_CENTERMARKSYMBOL_1
340
0
102
{BLKREFS
331
A9
102
}
  0
ENDTAB
  0
ENDSEC
  0
SECTION
  2
BLOCKS
  0
BLOCK
  5
20
330
1F
100
AcDbEntity
  8
0
100
AcDbBlockBegin
  2
*Model_Space
 70
     0
 10
0.0
 20
0.0
 30
0.0
  3
*Model_Space
  1

  0
ENDBLK
  5
21
330
1F
100
AcDbEntity
  8
0
100
AcDbBlockEnd
  0
BLOCK
  5
1C
330
1B
100
AcDbEntity
 67
     1
  8
0
100
AcDbBlockBegin
  2
*Paper_Space
 70
     0
 10
0.0
 20
0.0
 30
0.0
  3
*Paper_Space
  1

  0
ENDBLK
  5
1D
330
1B
100
AcDbEntity
 67
     1
  8
0
100
AcDbBlockEnd
  0
BLOCK
  5
24
330
23
100
AcDbEntity
  8
0
100
AcDbBlockBegin
  2
*Paper_Space0
 70
     0
 10
0.0
 20
0.0
 30
0.0
  3
*Paper_Space0
  1

  0
ENDBLK
  5
25
330
23
100
AcDbEntity
  8
0
100
AcDbBlockEnd
  0
BLOCK
  5
89
330
88
100
AcDbEntity
  8
0
100
AcDbBlockBegin
  2
SW_CENTERMARKSYMBOL_0
 70
     0
 10
0.0
 20
0.0
 30
0.0
  3
SW_CENTERMARKSYMBOL_0
  1

  0
LINE
  5
8B
330
88
100
AcDbEntity
  8
FORMAT
 62
     0
100
AcDbLine
 10
0.0
 20
0.0
 30
0.0
 11
0.0
 21
2.5
 31
0.0
  0
LINE
  5
8C
330
88
100
AcDbEntity
  8
FORMAT
 62
     0
100
AcDbLine
 10
0.0
 20
0.0
 30
0.0
 11
-2.5
 21
0.0
 31
0.0
  0
LINE
  5
8D
330
88
100
AcDbEntity
  8
FORMAT
 62
     0
100
AcDbLine
 10
0.0
 20
0.0
 30
0.0
 11
0.0
 21
-2.5
 31
0.0
  0
LINE
  5
8E
330
88
100
AcDbEntity
  8
FORMAT
 62
     0
100
AcDbLine
 10
0.0
 20
0.0
 30
0.0
 11
2.5
 21
0.0
 31
0.0
  0
LINE
  5
8F
330
88
100
AcDbEntity
  8
FORMAT
 62
     0
100
AcDbLine
 10
0.0
 20
5.0
 30
0.0
 11
0.0
 21
47.5
 31
0.0
  0
LINE
  5
90
330
88
100
AcDbEntity
  8
FORMAT
 62
     0
100
AcDbLine
 10
-5.0
 20
0.0
 30
0.0
 11
-47.5
 21
0.0
 31
0.0
  0
LINE
  5
91
330
88
100
AcDbEntity
  8
FORMAT
 62
     0
100
AcDbLine
 10
0.0
 20
-5.0
 30
0.0
 11
0.0
 21
-47.5
 31
0.0
  0
LINE
  5
92
330
88
100
AcDbEntity
  8
FORMAT
 62
     0
100
AcDbLine
 10
5.0
 20
0.0
 30
0.0
 11
47.5
 21
0.0
 31
0.0
  0
ENDBLK
  5
8A
330
88
100
AcDbEntity
  8
0
100
AcDbBlockEnd
  0
BLOCK
  5
9F
330
9E
100
AcDbEntity
  8
0
100
AcDbBlockBegin
  2
SW_CENTERMARKSYMBOL_1
 70
     0
 10
0.0
 20
0.0
 30
0.0
  3
SW_CENTERMARKSYMBOL_1
  1

  0
LINE
  5
A1
330
9E
100
AcDbEntity
  8
FORMAT
 62
     0
100
AcDbLine
 10
0.0
 20
0.0
 30
0.0
 11
0.0
 21
2.5
 31
0.0
  0
LINE
  5
A2
330
9E
100
AcDbEntity
  8
FORMAT
 62
     0
100
AcDbLine
 10
0.0
 20
0.0
 30
0.0
 11
-2.5
 21
0.0
 31
0.0
  0
LINE
  5
A3
330
9E
100
AcDbEntity
  8
FORMAT
 62
     0
100
AcDbLine
 10
0.0
 20
0.0
 30
0.0
 11
0.0
 21
-2.5
 31
0.0
  0
LINE
  5
A4
330
9E
100
AcDbEntity
  8
FORMAT
 62
     0
100
AcDbLine
 10
0.0
 20
0.0
 30
0.0
 11
2.5
 21
0.0
 31
0.0
  0
LINE
  5
A5
330
9E
100
AcDbEntity
  8
FORMAT
 62
     0
100
AcDbLine
 10
0.0
 20
5.0
 30
0.0
 11
0.0
 21
47.5
 31
0.0
  0
LINE
  5
A6
330
9E
100
AcDbEntity
  8
FORMAT
 62
     0
100
AcDbLine
 10
-5.0
 20
0.0
 30
0.0
 11
-47.5
 21
0.0
 31
0.0
  0
LINE
  5
A7
330
9E
100
AcDbEntity
  8
FORMAT
 62
     0
100
AcDbLine
 10
0.0
 20
-5.0
 30
0.0
 11
0.0
 21
-47.5
 31
0.0
  0
LINE
  5
A8
330
9E
100
AcDbEntity
  8
FORMAT
 62
     0
100
AcDbLine
 10
5.0
 20
0.0
 30
0.0
 11
47.5
 21
0.0
 31
0.0
  0
ENDBLK
  5
A0
330
9E
100
AcDbEntity
  8
0
100
AcDbBlockEnd
  0
ENDSEC
  0
SECTION
  2
ENTITIES
  0
LINE
  5
83
330
1F
100
AcDbEntity
  8
0
  6
Continuous
 62
     7
370
    25
100
AcDbLine
 10
88.6923147233
 20
63.0001860426
 30
0.0
 11
230.6923147233
 21
63.0001860426
 31
0.0
  0
LINE
  5
84
330
1F
100
AcDbEntity
  8
0
  6
Continuous
 62
     7
370
    25
100
AcDbLine
 10
230.6923147233
 20
153.0001860426
 30
0.0
 11
88.6923147233
 21
153.0001860426
 31
0.0
  0
CIRCLE
  5
85
330
1F
100
AcDbEntity
  8
0
  6
Continuous
 62
     7
370
    25
100
AcDbCircle
 10
88.6923147233
 20
108.0001860426
 30
0.0
 40
36.80000000000003
  0
CIRCLE
  5
86
330
1F
100
AcDbEntity
  8
0
  6
Continuous
 62
     7
370
    25
100
AcDbCircle
 10
88.6923147233
 20
108.0001860426
 30
0.0
 40
45.00000000000001
  0
LINE
  5
87
330
1F
100
AcDbEntity
  8
0
  6
Continuous
 62
     7
370
    25
100
AcDbLine
 10
230.6923147233
 20
153.0001860426
 30
0.0
 11
230.6923147233
 21
63.0001860426
 31
0.0
  0
INSERT
  5
93
330
1F
100
AcDbEntity
  8
FORMAT
 62
     7
100
AcDbBlockReference
  2
SW_CENTERMARKSYMBOL_0
 10
88.6923147233
 20
108.0001860426
 30
0.0
  0
LINE
  5
94
330
1F
100
AcDbEntity
  8
0
  6
Continuous
 62
     7
370
    25
100
AcDbLine
 10
-189.8589575142
 20
153.0001860426
 30
0.0
 11
-334.8589575142
 21
153.0001860426
 31
0.0
  0
LINE
  5
95
330
1F
100
AcDbEntity
  8
0
  6
Continuous
 62
     7
370
    25
100
AcDbLine
 10
-44.8589575142
 20
153.0001860426
 30
0.0
 11
-189.8589575142
 21
153.0001860426
 31
0.0
  0
LINE
  5
96
330
1F
100
AcDbEntity
  8
0
  6
Continuous
 62
     7
370
    25
100
AcDbLine
 10
-189.8589575142
 20
63.0001860426
 30
0.0
 11
-44.8589575142
 21
63.0001860426
 31
0.0
  0
LINE
  5
97
330
1F
100
AcDbEntity
  8
0
  6
Continuous
 62
     7
370
    25
100
AcDbLine
 10
-334.8589575142
 20
63.0001860426
 30
0.0
 11
-189.8589575142
 21
63.0001860426
 31
0.0
  0
CIRCLE
  5
98
330
1F
100
AcDbEntity
  8
0
  6
Continuous
 62
     7
370
    25
100
AcDbCircle
 10
-189.8589575142
 20
108.0001860426
 30
0.0
 40
36.80000000000001
  0
CIRCLE
  5
99
330
1F
100
AcDbEntity
  8
0
  6
Continuous
 62
     7
370
    25
100
AcDbCircle
 10
-189.8589575142
 20
108.0001860426
 30
0.0
 40
45.0
  0
LINE
  5
9A
330
1F
100
AcDbEntity
  8
0
  6
Continuous
 62
     7
370
    25
100
AcDbLine
 10
-334.8589575142
 20
108.0001860426
 30
0.0
 11
-334.8589575142
 21
153.0001860426
 31
0.0
  0
LINE
  5
9B
330
1F
100
AcDbEntity
  8
0
  6
Continuous
 62
     7
370
    25
100
AcDbLine
 10
-334.8589575142
 20
63.0001860426
 30
0.0
 11
-334.8589575142
 21
108.0001860426
 31
0.0
  0
LINE
  5
9C
330
1F
100
AcDbEntity
  8
0
  6
Continuous
 62
     7
370
    25
100
AcDbLine
 10
-44.8589575142
 20
108.0001860426
 30
0.0
 11
-44.8589575142
 21
153.0001860426
 31
0.0
  0
LINE
  5
9D
330
1F
100
AcDbEntity
  8
0
  6
Continuous
 62
     7
370
    25
100
AcDbLine
 10
-44.8589575142
 20
63.0001860426
 30
0.0
 11
-44.8589575142
 21
108.0001860426
 31
0.0
  0
INSERT
  5
A9
330
1F
100
AcDbEntity
  8
FORMAT
 62
     7
100
AcDbBlockReference
  2
SW_CENTERMARKSYMBOL_1
 10
-189.8589575142
 20
108.0001860426
 30
0.0
  0
LINE
  5
AA
330
1F
100
AcDbEntity
  8
0
  6
Continuous
 62
     7
370
    25
100
AcDbLine
 10
133.6923147233
 20
398.0063708251
 30
0.0
 11
133.6923147233
 21
498.0063708251
 31
0.0
  0
LINE
  5
AB
330
1F
100
AcDbEntity
  8
0
  6
Continuous
 62
     7
370
    25
100
AcDbLine
 10
133.6923147233
 20
208.0063708251
 30
0.0
 11
133.6923147233
 21
308.0063708251
 31
0.0
  0
LINE
  5
AC
330
1F
100
AcDbEntity
  8
0
  6
Continuous
 62
     7
370
    25
100
AcDbLine
 10
43.6923147233
 20
498.0063708251
 30
0.0
 11
43.6923147233
 21
208.0063708251
 31
0.0
  0
LINE
  5
AD
330
1F
100
AcDbEntity
  8
0
  6
Continuous
 62
     7
370
    25
100
AcDbLine
 10
133.6923147233
 20
308.0063708251
 30
0.0
 11
230.6923147233
 21
308.0063708251
 31
0.0
  0
LINE
  5
AE
330
1F
100
AcDbEntity
  8
0
  6
Continuous
 62
     7
370
    25
100
AcDbLine
 10
230.6923147233
 20
398.0063708251
 30
0.0
 11
133.6923147233
 21
398.0063708251
 31
0.0
  0
LINE
  5
AF
330
1F
100
AcDbEntity
  8
0
  6
Continuous
 62
     7
370
    25
100
AcDbLine
 10
133.6923147233
 20
398.0063708251
 30
0.0
 11
88.6923147233
 21
353.0063708251
 31
0.0
  0
LINE
  5
B0
330
1F
100
AcDbEntity
  8
0
  6
Continuous
 62
     7
370
    25
100
AcDbLine
 10
88.6923147233
 20
353.0063708251
 30
0.0
 11
133.6923147233
 21
308.0063708251
 31
0.0
  0
LINE
  5
B1
330
1F
100
AcDbEntity
  8
0
  6
Continuous
 62
     7
370
    25
100
AcDbLine
 10
43.6923147233
 20
498.0063708251
 30
0.0
 11
133.6923147233
 21
498.0063708251
 31
0.0
  0
LINE
  5
B2
330
1F
100
AcDbEntity
  8
0
  6
Continuous
 62
     7
370
    25
100
AcDbLine
 10
43.6923147233
 20
208.0063708251
 30
0.0
 11
133.6923147233
 21
208.0063708251
 31
0.0
  0
LINE
  5
B3
330
1F
100
AcDbEntity
  8
0
  6
Continuous
 62
     7
370
    25
100
AcDbLine
 10
230.6923147233
 20
398.0063708251
 30
0.0
 11
230.6923147233
 21
308.0063708251
 31
0.0
  0
LINE
  5
B4
330
1F
100
AcDbEntity
  8
0
  6
Continuous
 62
     7
370
    25
100
AcDbLine
 10
435.2604458548
 20
63.0001860426
 30
0.0
 11
580.2604458548
 21
63.0001860426
 31
0.0
  0
LINE
  5
B5
330
1F
100
AcDbEntity
  8
0
  6
Continuous
 62
     7
370
    25
100
AcDbLine
 10
290.2604458548
 20
63.0001860426
 30
0.0
 11
435.2604458548
 21
63.0001860426
 31
0.0
  0
LINE
  5
B6
330
1F
100
AcDbEntity
  8
0
  6
Continuous
 62
     7
370
    25
100
AcDbLine
 10
435.2604458548
 20
153.0001860426
 30
0.0
 11
290.2604458548
 21
153.0001860426
 31
0.0
  0
LINE
  5
B7
330
1F
100
AcDbEntity
  8
0
  6
Continuous
 62
     7
370
    25
100
AcDbLine
 10
580.2604458548
 20
153.0001860426
 30
0.0
 11
435.2604458548
 21
153.0001860426
 31
0.0
  0
LINE
  5
B8
330
1F
100
AcDbEntity
  8
0
  6
Continuous
 62
     7
370
    25
100
AcDbLine
 10
580.2604458548
 20
153.0001860426
 30
0.0
 11
580.2604458548
 21
63.0001860426
 31
0.0
  0
LINE
  5
B9
330
1F
100
AcDbEntity
  8
0
  6
Continuous
 62
     7
370
    25
100
AcDbLine
 10
290.2604458548
 20
153.0001860426
 30
0.0
 11
290.2604458548
 21
63.0001860426
 31
0.0
  0
LINE
  5
BA
330
1F
100
AcDbEntity
  8
0
  6
Continuous
 62
     7
370
    25
100
AcDbLine
 10
43.6923147233
 20
11.8299854303
 30
0.0
 11
43.6923147233
 21
-278.1700145697
 31
0.0
  0
LINE
  5
BB
330
1F
100
AcDbEntity
  8
0
  6
Continuous
 62
     7
370
    25
100
AcDbLine
 10
133.6923147233
 20
-88.1700145697
 30
0.0
 11
133.6923147233
 21
11.8299854303
 31
0.0
  0
LINE
  5
BC
330
1F
100
AcDbEntity
  8
0
  6
Continuous
 62
     7
370
    25
100
AcDbLine
 10
133.6923147233
 20
-278.1700145697
 30
0.0
 11
133.6923147233
 21
-178.1700145697
 31
0.0
  0
LINE
  5
BD
330
1F
100
AcDbEntity
  8
0
  6
Continuous
 62
     7
370
    25
100
AcDbLine
 10
133.6923147233
 20
-178.1700145697
 30
0.0
 11
230.6923147233
 21
-178.1700145697
 31
0.0
  0
LINE
  5
BE
330
1F
100
AcDbEntity
  8
0
  6
Continuous
 62
     7
370
    25
100
AcDbLine
 10
230.6923147233
 20
-88.1700145697
 30
0.0
 11
133.6923147233
 21
-88.1700145697
 31
0.0
  0
LINE
  5
BF
330
1F
100
AcDbEntity
  8
0
  6
Continuous
 62
     7
370
    25
100
AcDbLine
 10
88.6923147233
 20
-133.1700145697
 30
0.0
 11
133.6923147233
 21
-178.1700145697
 31
0.0
  0
LINE
  5
C0
330
1F
100
AcDbEntity
  8
0
  6
Continuous
 62
     7
370
    25
100
AcDbLine
 10
133.6923147233
 20
-88.1700145697
 30
0.0
 11
88.6923147233
 21
-133.1700145697
 31
0.0
  0
LINE
  5
C1
330
1F
100
AcDbEntity
  8
0
  6
Continuous
 62
     7
370
    25
100
AcDbLine
 10
133.6923147233
 20
-278.1700145697
 30
0.0
 11
43.6923147233
 21
-278.1700145697
 31
0.0
  0
LINE
  5
C2
330
1F
100
AcDbEntity
  8
0
  6
Continuous
 62
     7
370
    25
100
AcDbLine
 10
133.6923147233
 20
11.8299854303
 30
0.0
 11
43.6923147233
 21
11.8299854303
 31
0.0
  0
LINE
  5
C3
330
1F
100
AcDbEntity
  8
0
  6
Continuous
 62
     7
370
    25
100
AcDbLine
 10
230.6923147233
 20
-88.1700145697
 30
0.0
 11
230.6923147233
 21
-178.1700145697
 31
0.0
  0
LINE
  5
C4
330
1F
100
AcDbEntity
  8
0
  6
Continuous
 62
     7
370
    25
100
AcDbLine
 10
422.7341652475
 20
-79.4956540763
 30
0.0
 11
342.7018534598
 21
-33.2939839114
 31
0.0
  0
LINE
  5
C5
330
1F
100
AcDbEntity
  8
0
  6
Continuous
 62
     7
370
    25
100
AcDbLine
 10
547.7628200039
 20
-151.6731601257
 30
0.0
 11
512.7414799047
 21
-131.4557708257
 31
0.0
  0
LINE
  5
C6
330
1F
100
AcDbEntity
  8
0
  6
Continuous
 62
     7
370
    25
100
AcDbLine
 10
297.7055104912
 20
-111.2383815257
 30
0.0
 11
502.7664770353
 21
-229.61755774
 31
0.0
  0
LINE
  5
C7
330
1F
100
AcDbEntity
  8
0
  6
Continuous
 62
     7
370
    25
100
AcDbLine
 10
467.7305082162
 20
-157.4400516905
 30
0.0
 11
545.6414996603
 21
-112.4629936934
 31
0.0
  0
LINE
  5
C8
330
1F
100
AcDbEntity
  8
0
  6
Continuous
 62
     7
370
    25
100
AcDbLine
 10
500.6451566917
 20
-34.5185960791
 30
0.0
 11
422.7341652475
 21
-79.4956540763
 31
0.0
  0
LINE
  5
C9
330
1F
100
AcDbEntity
  8
0
  6
Continuous
 62
     7
370
    25
100
AcDbLine
 10
422.7341652475
 20
-79.4956540763
 30
0.0
 11
422.7341652475
 21
-168.2001073605
 31
0.0
  0
ELLIPSE
  5
CA
330
1F
100
AcDbEntity
  8
0
  6
Continuous
 62
     7
370
    25
100
AcDbEllipse
 10
422.7341652475
 20
-131.4557708257
 30
0.0
 11
63.63961030678928
 21
1.136868377216160E-13
 31
0.0
210
0.0
220
0.0
230
1.0
 40
0.5773815452
 41
4.712388980384697
 42
5.497705879720051
  0
LWPOLYLINE
  5
CB
330
1F
100
AcDbEntity
  8
0
  6
Continuous
 62
     7
370
    25
100
AcDbPolyline
 90
       86
 70
   128
 43
0.0
 10
352.0234871289
 20
-53.8970002025
 10
351.9365927581
 20
-51.2335011315
 10
351.6763842327
 20
-48.6848752738
 10
351.2442827214
 20
-46.2650423401
 10
350.6426482129
 20
-43.9872186186
 10
349.8747666261
 20
-41.8638447927
 10
348.944831864
 20
-39.9065179939
 10
347.8579229079
 20
-38.1259284624
 10
346.6199760775
 20
-36.5318011608
 10
345.2377526091
 20
-35.1328426595
 10
343.7188017281
 20
-33.9366935849
 10
342.0714194173
 20
-32.9498868884
 10
340.3046031077
 20
-32.1778121659
 10
338.4280025373
 20
-31.6246862219
 10
336.4518670477
 20
-31.2935300384
 10
334.3869896057
 20
-31.1861522757
 10
332.2446478557
 20
-31.3031393939
 10
330.0365425256
 20
-31.6438524499
 10
327.7747335209
 20
-32.2064305872
 10
325.471574058
 20
-32.987801199
 10
323.1396431954
 20
-33.9836967101
 10
320.7916771307
 20
-35.1886778844
 10
318.4404996404
 20
-36.5961635328
 10
316.0989520405
 20
-38.1984664566
 10
313.7798230522
 20
-39.9868354328
 10
311.4957789537
 20
-41.9515030105
 10
309.2592944018
 20
-44.0817388564
 10
307.0825842997
 20
-46.3659083611
 10
304.977537083
 20
-48.7915361829
 10
302.9556497898
 20
-51.3453743837
 10
301.0279652672
 20
-54.0134747849
 10
299.2050118597
 20
-56.7812651473
 10
297.4967459066
 20
-59.6336287597
 10
295.9124973642
 20
-62.5549870013
 10
294.4609188487
 20
-65.5293844263
 10
293.1499383785
 20
-68.5405759075
 10
291.9867160743
 20
-71.5721153611
 10
290.9776050531
 20
-74.6074455699
 10
290.1281167293
 20
-77.629988613
 10
289.4428907134
 20
-80.6232364082
 10
288.9256694725
 20
-83.5708408742
 10
288.5792778896
 20
-86.4567032175
 10
288.4056078353
 20
-89.2650618587
 10
288.4056078353
 20
-91.9805785167
 10
288.5792778896
 20
-94.5884219813
 10
288.9256694725
 20
-97.0743491157
 10
289.4428907134
 20
-99.4247826481
 10
290.1281167293
 20
-101.6268853255
 10
290.9776050531
 20
-103.6686300267
 10
291.9867160743
 20
-105.5388654501
 10
293.1499383785
 20
-107.2273770185
 10
294.4609188487
 20
-108.7249426672
 10
295.9124973642
 20
-110.0233832119
 10
297.4967459066
 20
-111.1156070207
 10
299.2050118597
 20
-111.9956487458
 10
301.0279652672
 20
-112.6587019045
 10
302.9556497898
 20
-113.1011451303
 10
304.977537083
 20
-113.3205619519
 10
307.0825842997
 20
-113.3157539906
 10
309.2592944018
 20
-113.0867475059
 10
311.4957789537
 20
-112.6347932517
 10
313.7798230522
 20
-111.9623596454
 10
316.0989520405
 20
-111.0731192863
 10
318.4404996404
 20
-109.9719288967
 10
320.7916771307
 20
-108.6648027969
 10
323.1396431954
 20
-107.1588800562
 10
325.471574058
 20
-105.4623855024
 10
327.7747335209
 20
-103.5845848005
 10
330.0365425256
 20
-101.5357338467
 10
332.2446478557
 20
-99.3270227546
 10
334.3869896057
 20
-96.9705147381
 10
336.4518670477
 20
-94.4790802269
 10
338.4280025373
 20
-91.8663265723
 10
340.3046031077
 20
-89.1465237287
 10
342.0714194173
 20
-86.3345263161
 10
343.7188017281
 20
-83.4456924894
 10
345.2377526091
 20
-80.495800057
 10
346.6199760775
 20
-77.5009603085
 10
347.8579229079
 20
-74.47753002
 10
348.944831864
 20
-71.4420221195
 10
349.8747666261
 20
-68.4110154983
 10
350.6426482129
 20
-65.4010644636
 10
351.2442827214
 20
-62.4286083242
 10
351.6763842327
 20
-59.5098816048
 10
351.9365927581
 20
-56.6608253785
 10
352.0234871289
 20
-53.8970002025
  0
LWPOLYLINE
  5
CC
330
1F
100
AcDbEntity
  8
0
  6
Continuous
 62
     7
370
    25
100
AcDbPolyline
 90
       12
 70
   128
 43
0.0
 10
557.084453673
 20
-172.2761764168
 10
556.9975593022
 20
-169.6126773458
 10
556.7373507768
 20
-167.0640514881
 10
556.3052492655
 20
-164.6442185544
 10
555.703614757
 20
-162.3663948329
 10
554.9357331702
 20
-160.243021007
 10
554.0057984081
 20
-158.2856942082
 10
552.918889452
 20
-156.5051046767
 10
551.6809426216
 20
-154.9109773751
 10
550.2987191532
 20
-153.5120188738
 10
548.7797682722
 20
-152.3158697992
 10
547.7628200039
 20
-151.6731601257
  0
LWPOLYLINE
  5
CD
330
1F
100
AcDbEntity
  8
0
  6
Continuous
 62
     7
370
    25
100
AcDbPolyline
 90
       33
 70
   128
 43
0.0
 10
502.7664770353
 20
-229.61755774
 10
504.2659784038
 20
-230.3748249601
 10
506.0889318113
 20
-231.0378781188
 10
508.0166163339
 20
-231.4803213446
 10
510.0385036271
 20
-231.6997381662
 10
512.1435508438
 20
-231.6949302049
 10
514.3202609459
 20
-231.4659237202
 10
516.5567454978
 20
-231.0139694659
 10
518.8407895963
 20
-230.3415358597
 10
521.1599185846
 20
-229.4522955006
 10
523.5014661845
 20
-228.351105111
 10
525.8526436748
 20
-227.0439790112
 10
528.2006097395
 20
-225.5380562704
 10
530.5325406021
 20
-223.8415617167
 10
532.835700065
 20
-221.9637610148
 10
535.0975090697
 20
-219.914910061
 10
537.3056143998
 20
-217.7061989689
 10
539.4479561498
 20
-215.3496909524
 10
541.5128335918
 20
-212.8582564412
 10
543.4889690814
 20
-210.2455027866
 10
545.3655696518
 20
-207.525699943
 10
547.1323859614
 20
-204.7137025304
 10
548.7797682722
 20
-201.8248687037
 10
550.2987191532
 20
-198.8749762713
 10
551.6809426216
 20
-195.8801365228
 10
552.918889452
 20
-192.8567062343
 10
554.0057984081
 20
-189.8211983338
 10
554.9357331702
 20
-186.7901917126
 10
555.703614757
 20
-183.7802406779
 10
556.3052492655
 20
-180.8077845385
 10
556.7373507768
 20
-177.8890578191
 10
556.9975593022
 20
-175.0400015928
 10
557.084453673
 20
-172.2761764168
  0
LWPOLYLINE
  5
CE
330
1F
100
AcDbEntity
  8
0
  6
Continuous
 62
     7
370
    25
100
AcDbPolyline
 90
       78
 70
   128
 43
0.0
 10
346.2252115231
 20
-57.244273461
 10
346.1386270302
 20
-54.8450094633
 10
345.8794497569
 20
-52.5616804993
 10
345.4494044852
 20
-50.4094817466
 10
344.8513530954
 20
-48.4027357327
 10
344.089275521
 20
-46.5547970213
 10
343.1682432623
 20
-44.8779633397
 10
342.0943856371
 20
-43.3833937393
 10
340.8748489908
 20
-42.0810343342
 10
339.5177491385
 20
-40.9795521114
 10
338.0321173559
 20
-40.0862772534
 10
336.4278402772
 20
-39.407154357
 10
334.7155941019
 20
-38.9467028729
 10
332.9067735456
 20
-38.7079870299
 10
331.0134160109
 20
-38.6925954425
 10
329.0481214795
 20
-38.9006305391
 10
327.0239686626
 20
-39.3307078806
 10
324.954427963
 20
-39.9799653731
 10
322.8532718326
 20
-40.8440823152
 10
320.7344831189
 20
-41.9173081513
 10
318.6121620112
 20
-43.1925007403
 10
316.5004322063
 20
-44.6611738862
 10
314.4133469176
 20
-46.3135538112
 10
312.3647953533
 20
-48.1386441998
 10
310.3684102862
 20
-50.1242993765
 10
308.4374773295
 20
-52.2573051336
 10
306.5848465234
 20
-54.5234666699
 10
304.8228468203
 20
-56.9077030541
 10
303.1632040375
 20
-59.3941475865
 10
301.6169628239
 20
-61.9662533889
 10
300.1944131597
 20
-64.6069035217
 10
298.9050218781
 20
-67.2985248939
 10
297.7573696654
 20
-70.0232052092
 10
296.7590939578
 20
-72.7628121698
 10
295.9168381154
 20
-75.4991141434
 10
295.2362072118
 20
-78.2139014917
 10
294.7217307334
 20
-80.8891077529
 10
294.3768324363
 20
-83.5069298707
 10
294.2038075618
 20
-86.0499466708
 10
294.2038075618
 20
-88.5012347959
 10
294.3768324363
 20
-90.8444813281
 10
294.7217307334
 20
-93.0640923482
 10
295.2362072118
 20
-95.1452967111
 10
295.9168381154
 20
-97.0742443452
 10
296.7590939578
 20
-98.8380984222
 10
297.7573696654
 20
-100.4251207843
 10
298.9050218781
 20
-101.8247500594
 10
300.1944131597
 20
-103.0276719457
 10
301.6169628239
 20
-104.0258811965
 10
303.1632040375
 20
-104.8127348939
 10
304.8228468203
 20
-105.3829966564
 10
306.5848465234
 20
-105.732871486
 10
308.4374773295
 20
-105.8600310235
 10
310.3684102862
 20
-105.7636290431
 10
312.3647953533
 20
-105.4443070841
 10
314.4133469176
 20
-104.9041901814
 10
316.5004322063
 20
-104.146872724
 10
318.6121620112
 20
-103.1773945346
 10
320.7344831189
 20
-102.0022073304
 10
322.8532718326
 20
-100.6291317886
 10
324.954427963
 20
-99.0673055003
 10
327.0239686626
 20
-97.3271221618
 10
329.0481214795
 20
-95.420162406
 10
331.0134160109
 20
-93.3591167356
 10
332.9067735456
 20
-91.1577010693
 10
334.7155941019
 20
-88.8305654653
 10
336.4278402772
 20
-86.3931966271
 10
338.0321173559
 20
-83.8618148421
 10
339.5177491385
 20
-81.2532660384
 10
340.8748489908
 20
-78.584909678
 10
342.0943856371
 20
-75.8745032322
 10
343.1682432623
 20
-73.1400840088
 10
344.089275521
 20
-70.3998491164
 10
344.8513530954
 20
-67.6720343662
 10
345.4494044852
 20
-64.9747929154
 10
345.8794497569
 20
-62.3260744607
 10
346.1386270302
 20
-59.7435057864
 10
346.2252115231
 20
-57.244273461
  0
LWPOLYLINE
  5
CF
330
1F
100
AcDbEntity
  8
0
  6
Continuous
 62
     7
370
    25
100
AcDbPolyline
 90
       86
 70
   128
 43
0.0
 10
554.9631333294
 20
-91.8599774023
 10
554.8762389586
 20
-89.0961522263
 10
554.6160304332
 20
-86.247096
 10
554.183928922
 20
-83.3283692806
 10
553.5822944134
 20
-80.3559131412
 10
552.8144128266
 20
-77.3459621065
 10
551.8844780646
 20
-74.3149554854
 10
550.7975691084
 20
-71.2794475848
 10
549.559622278
 20
-68.2560172964
 10
548.1773988097
 20
-65.2611775479
 10
546.6584479286
 20
-62.3112851154
 10
545.0110656178
 20
-59.4224512887
 10
543.2442493083
 20
-56.6104538761
 10
541.3676487379
 20
-53.8906510326
 10
539.3915132483
 20
-51.2778973779
 10
537.3266358062
 20
-48.7864628667
 10
535.1842940563
 20
-46.4299548502
 10
532.9761887261
 20
-44.2212437581
 10
530.7143797214
 20
-42.1723928043
 10
528.4112202586
 20
-40.2945921025
 10
526.079289396
 20
-38.5980975487
 10
523.7313233313
 20
-37.0921748079
 10
521.3801458409
 20
-35.7850487081
 10
519.0385982411
 20
-34.6838583186
 10
516.7194692527
 20
-33.7946179594
 10
514.4354251542
 20
-33.1221843532
 10
512.1989406024
 20
-32.670230099
 10
510.0222305002
 20
-32.4412236142
 10
507.9171832836
 20
-32.4364156529
 10
505.8952959903
 20
-32.6558324745
 10
503.9676114677
 20
-33.0982757004
 10
502.1446580602
 20
-33.761328859
 10
500.4363921072
 20
-34.6413705841
 10
498.8521435648
 20
-35.7335943929
 10
497.4005650492
 20
-37.0320349376
 10
496.089584579
 20
-38.5296005863
 10
494.9263622749
 20
-40.2181121547
 10
493.9172512537
 20
-42.0883475782
 10
493.0677629298
 20
-44.1300922794
 10
492.382536914
 20
-46.3321949567
 10
491.865315673
 20
-48.6826284891
 10
491.5189240901
 20
-51.1685556235
 10
491.3452540358
 20
-53.7763990881
 10
491.3452540358
 20
-56.4919157462
 10
491.5189240901
 20
-59.3002743873
 10
491.865315673
 20
-62.1861367306
 10
492.382536914
 20
-65.1337411966
 10
493.0677629298
 20
-68.1269889919
 10
493.9172512537
 20
-71.1495320349
 10
494.9263622749
 20
-74.1848622437
 10
496.089584579
 20
-77.2164016974
 10
497.4005650492
 20
-80.2275931785
 10
498.8521435648
 20
-83.2019906035
 10
500.4363921072
 20
-86.1233488451
 10
502.1446580602
 20
-88.9757124575
 10
503.9676114677
 20
-91.74350282
 10
505.8952959903
 20
-94.4116032212
 10
507.9171832836
 20
-96.965441422
 10
510.0222305002
 20
-99.3910692437
 10
512.1989406024
 20
-101.6752387485
 10
514.4354251542
 20
-103.8054745944
 10
516.7194692527
 20
-105.770142172
 10
519.0385982411
 20
-107.5585111483
 10
521.3801458409
 20
-109.1608140721
 10
523.7313233313
 20
-110.5682997204
 10
526.079289396
 20
-111.7732808948
 10
528.4112202586
 20
-112.7691764058
 10
530.7143797214
 20
-113.5505470176
 10
532.9761887261
 20
-114.1131251549
 10
535.1842940563
 20
-114.4538382109
 10
537.3266358062
 20
-114.5708253291
 10
539.3915132483
 20
-114.4634475664
 10
541.3676487379
 20
-114.1322913829
 10
543.2442493083
 20
-113.5791654389
 10
545.0110656178
 20
-112.8070907164
 10
546.6584479286
 20
-111.8202840199
 10
548.1773988097
 20
-110.6241349453
 10
549.559622278
 20
-109.2251764441
 10
550.7975691084
 20
-107.6310491424
 10
551.8844780646
 20
-105.8504596109
 10
552.8144128266
 20
-103.8931328121
 10
553.5822944134
 20
-101.7697589862
 10
554.183928922
 20
-99.4919352647
 10
554.6160304332
 20
-97.072102331
 10
554.8762389586
 20
-94.5234764733
 10
554.9631333294
 20
-91.8599774023
  0
LWPOLYLINE
  5
D0
330
1F
100
AcDbEntity
  8
0
  6
Continuous
 62
     7
370
    25
100
AcDbPolyline
 90
       78
 70
   128
 43
0.0
 10
549.1648577237
 20
-88.5127041438
 10
549.0782732307
 20
-86.0134718184
 10
548.8190959574
 20
-83.4309031442
 10
548.3890506857
 20
-80.7821846894
 10
547.790999296
 20
-78.0849432386
 10
547.0289217215
 20
-75.3571284884
 10
546.1078894628
 20
-72.616893596
 10
545.0340318377
 20
-69.8824743726
 10
543.8144951914
 20
-67.1720679268
 10
542.4573953391
 20
-64.5037115664
 10
540.9717635564
 20
-61.8951627628
 10
539.3674864778
 20
-59.3637809778
 10
537.6552403024
 20
-56.9264121395
 10
535.8464197462
 20
-54.5992765355
 10
533.9530622114
 20
-52.3978608693
 10
531.9877676801
 20
-50.3368151988
 10
529.9636148631
 20
-48.429855443
 10
527.8940741635
 20
-46.6896721045
 10
525.7929180332
 20
-45.1278458162
 10
523.6741293195
 20
-43.7547702744
 10
521.5518082118
 20
-42.5795830703
 10
519.4400784068
 20
-41.6101048808
 10
517.3529931181
 20
-40.8527874234
 10
515.3044415539
 20
-40.3126705207
 10
513.3080564868
 20
-39.9933485617
 10
511.37712353
 20
-39.8969465813
 10
509.524492724
 20
-40.0241061188
 10
507.7624930209
 20
-40.3739809484
 10
506.1028502381
 20
-40.9442427109
 10
504.5566090245
 20
-41.7310964083
 10
503.1340593602
 20
-42.7293056591
 10
501.8446680786
 20
-43.9322275454
 10
500.697015866
 20
-45.3318568205
 10
499.6987401584
 20
-46.9188791826
 10
498.8564843159
 20
-48.6827332596
 10
498.1758534123
 20
-50.6116808937
 10
497.6613769339
 20
-52.6928852566
 10
497.3164786368
 20
-54.9124962768
 10
497.1434537623
 20
-57.2557428089
 10
497.1434537623
 20
-59.707030934
 10
497.3164786368
 20
-62.2500477341
 10
497.6613769339
 20
-64.8678698519
 10
498.1758534123
 20
-67.5430761131
 10
498.8564843159
 20
-70.2578634614
 10
499.6987401584
 20
-72.994165435
 10
500.697015866
 20
-75.7337723956
 10
501.8446680786
 20
-78.458452711
 10
503.1340593602
 20
-81.1500740831
 10
504.5566090245
 20
-83.7907242159
 10
506.1028502381
 20
-86.3628300184
 10
507.7624930209
 20
-88.8492745508
 10
509.524492724
 20
-91.233510935
 10
511.37712353
 20
-93.4996724712
 10
513.3080564868
 20
-95.6326782284
 10
515.3044415539
 20
-97.618333405
 10
517.3529931181
 20
-99.4434237936
 10
519.4400784068
 20
-101.0958037187
 10
521.5518082118
 20
-102.5644768645
 10
523.6741293195
 20
-103.8396694535
 10
525.7929180332
 20
-104.9128952896
 10
527.8940741635
 20
-105.7770122317
 10
529.9636148631
 20
-106.4262697242
 10
531.9877676801
 20
-106.8563470657
 10
533.9530622114
 20
-107.0643821624
 10
535.8464197462
 20
-107.0489905749
 10
537.6552403024
 20
-106.8102747319
 10
539.3674864778
 20
-106.3498232478
 10
540.9717635564
 20
-105.6707003514
 10
542.4573953391
 20
-104.7774254934
 10
543.8144951914
 20
-103.6759432706
 10
545.0340318377
 20
-102.3735838655
 10
546.1078894628
 20
-100.8790142651
 10
547.0289217215
 20
-99.2021805835
 10
547.790999296
 20
-97.3542418721
 10
548.3890506857
 20
-95.3474958583
 10
548.8190959574
 20
-93.1952971055
 10
549.0782732307
 20
-90.9119681415
 10
549.1648577237
 20
-88.5127041438
  0
ENDSEC
  0
SECTION
  2
OBJECTS
  0
DICTIONARY
  5
C
330
0
100
AcDbDictionary
281
     1
  3
ACAD_GROUP
350
D
  3
ACAD_LAYOUT
350
1A
  3
ACAD_MLINESTYLE
350
17
  3
ACAD_PLOTSETTINGS
350
19
  3
ACAD_PLOTSTYLENAME
350
E
  3
ACAD_SCALELIST
350
47
  3
DWGPROPS
350
D1
  0
DICTIONARY
  5
D
102
{ACAD_REACTORS
330
C
102
}
330
C
100
AcDbDictionary
281
     1
  0
DICTIONARY
  5
1A
102
{ACAD_REACTORS
330
C
102
}
330
C
100
AcDbDictionary
281
     1
  3
Layout1
350
1E
  3
Layout2
350
26
  3
Model
350
22
  0
DICTIONARY
  5
17
102
{ACAD_REACTORS
330
C
102
}
330
C
100
AcDbDictionary
281
     1
  3
Standard
350
18
  0
DICTIONARY
  5
19
102
{ACAD_REACTORS
330
C
102
}
330
C
100
AcDbDictionary
281
     1
  0
ACDBDICTIONARYWDFLT
  5
E
102
{ACAD_REACTORS
330
C
102
}
330
C
100
AcDbDictionary
281
     1
  3
Normal
350
F
100
AcDbDictionaryWithDefault
340
F
  0
DICTIONARY
  5
47
102
{ACAD_REACTORS
330
C
102
}
330
C
100
AcDbDictionary
281
     1
  3
A0
350
48
  3
A1
350
49
  3
A2
350
4A
  3
A3
350
4B
  3
A4
350
4C
  3
A5
350
4D
  3
A6
350
4E
  3
A7
350
4F
  3
A8
350
50
  3
A9
350
51
  3
B0
350
52
  3
B1
350
53
  3
B2
350
54
  3
B3
350
55
  3
B4
350
56
  3
B5
350
57
  3
B6
350
58
  3
B7
350
59
  3
B8
350
5A
  3
B9
350
5B
  3
C0
350
5C
  3
C1
350
5D
  3
C2
350
5E
  3
C3
350
5F
  3
C4
350
60
  3
C5
350
61
  3
C6
350
62
  3
C7
350
63
  3
C8
350
64
  3
C9
350
65
  3
D0
350
66
  3
D1
350
67
  3
D2
350
68
  0
XRECORD
  5
D1
102
{ACAD_REACTORS
330
C
102
}
330
C
100
AcDbXrecord
280
     1
  1
DWGPROPS COOKIE
  2

  3

  4

  6

  7

  8
b.kav
  9

300
=
301
=
302
=
303
=
304
=
305
=
306
=
307
=
308
=
309
=
 40
0.0
 41
2460608.405296412
 42
2460608.405296412
  1

 90
        0
  0
LAYOUT
  5
1E
102
{ACAD_REACTORS
330
1A
102
}
330
1A
100
AcDbPlotSettings
  1

  2
none_device
  4

  6

 40
0.0
 41
0.0
 42
0.0
 43
0.0
 44
0.0
 45
0.0
 46
0.0
 47
0.0
 48
0.0
 49
0.0
140
0.0
141
0.0
142
1.0
143
1.0
 70
   688
 72
     1
 73
     0
 74
     5
  7

 75
    16
147
1.0
148
0.0
149
0.0
100
AcDbLayout
  1
Layout1
 70
     1
 71
     1
 10
0.0
 20
0.0
 11
420.0
 21
297.0
 12
0.0
 22
0.0
 32
0.0
 14
1.0000000000E+20
 24
1.0000000000E+20
 34
1.0000000000E+20
 15
-1.0000000000E+20
 25
-1.0000000000E+20
 35
-1.0000000000E+20
146
0.0
 13
0.0
 23
0.0
 33
0.0
 16
1.0
 26
0.0
 36
0.0
 17
0.0
 27
1.0
 37
0.0
 76
     0
330
1B
  0
LAYOUT
  5
26
102
{ACAD_REACTORS
330
1A
102
}
330
1A
100
AcDbPlotSettings
  1

  2
none_device
  4

  6

 40
0.0
 41
0.0
 42
0.0
 43
0.0
 44
0.0
 45
0.0
 46
0.0
 47
0.0
 48
0.0
 49
0.0
140
0.0
141
0.0
142
1.0
143
1.0
 70
   688
 72
     1
 73
     0
 74
     5
  7

 75
    16
147
1.0
148
0.0
149
0.0
100
AcDbLayout
  1
Layout2
 70
     1
 71
     2
 10
0.0
 20
0.0
 11
0.0
 21
0.0
 12
0.0
 22
0.0
 32
0.0
 14
0.0
 24
0.0
 34
0.0
 15
0.0
 25
0.0
 35
0.0
146
0.0
 13
0.0
 23
0.0
 33
0.0
 16
1.0
 26
0.0
 36
0.0
 17
0.0
 27
1.0
 37
0.0
 76
     0
330
23
  0
LAYOUT
  5
22
102
{ACAD_REACTORS
330
1A
102
}
330
1A
100
AcDbPlotSettings
  1

  2
none_device
  4
Letter_(8.50_x_11.00_Inches)
  6

 40
6.35
 41
6.35
 42
6.35000508
 43
6.35000508
 44
215.9
 45
279.4
 46
0.0
 47
0.0
 48
0.0
 49
0.0
140
0.0
141
0.0
142
1.0
143
1.0
 70
  1712
 72
     1
 73
     0
 74
     0
  7

 75
     0
147
1.0
148
0.0
149
0.0
100
AcDbLayout
  1
Model
 70
     1
 71
     0
 10
0.0
 20
0.0
 11
279.4
 21
215.9
 12
0.0
 22
0.0
 32
0.0
 14
0.0
 24
0.0
 34
0.0
 15
279.4
 25
215.9
 35
0.0
146
0.0
 13
0.0
 23
0.0
 33
0.0
 16
1.0
 26
0.0
 36
0.0
 17
0.0
 27
1.0
 37
0.0
 76
     0
330
1F
331
29
  0
MLINESTYLE
  5
18
102
{ACAD_REACTORS
330
17
102
}
330
17
100
AcDbMlineStyle
  2
Standard
 70
     0
  3

 62
   256
 51
90.0
 52
90.0
 71
     2
 49
0.5
 62
   256
  6
BYLAYER
 49
-0.5
 62
   256
  6
BYLAYER
  0
ACDBPLACEHOLDER
  5
F
102
{ACAD_REACTORS
330
E
102
}
330
E
  0
SCALE
  5
48
102
{ACAD_REACTORS
330
47
102
}
330
47
100
AcDbScale
 70
     0
300
1:1
140
1.0
141
1.0
290
     1
  0
SCALE
  5
49
102
{ACAD_REACTORS
330
47
102
}
330
47
100
AcDbScale
 70
     0
300
1:2
140
1.0
141
2.0
290
     0
  0
SCALE
  5
4A
102
{ACAD_REACTORS
330
47
102
}
330
47
100
AcDbScale
 70
     0
300
1:4
140
1.0
141
4.0
290
     0
  0
SCALE
  5
4B
102
{ACAD_REACTORS
330
47
102
}
330
47
100
AcDbScale
 70
     0
300
1:5
140
1.0
141
5.0
290
     0
  0
SCALE
  5
4C
102
{ACAD_REACTORS
330
47
102
}
330
47
100
AcDbScale
 70
     0
300
1:8
140
1.0
141
8.0
290
     0
  0
SCALE
  5
4D
102
{ACAD_REACTORS
330
47
102
}
330
47
100
AcDbScale
 70
     0
300
1:10
140
1.0
141
10.0
290
     0
  0
SCALE
  5
4E
102
{ACAD_REACTORS
330
47
102
}
330
47
100
AcDbScale
 70
     0
300
1:16
140
1.0
141
16.0
290
     0
  0
SCALE
  5
4F
102
{ACAD_REACTORS
330
47
102
}
330
47
100
AcDbScale
 70
     0
300
1:20
140
1.0
141
20.0
290
     0
  0
SCALE
  5
50
102
{ACAD_REACTORS
330
47
102
}
330
47
100
AcDbScale
 70
     0
300
1:30
140
1.0
141
30.0
290
     0
  0
SCALE
  5
51
102
{ACAD_REACTORS
330
47
102
}
330
47
100
AcDbScale
 70
     0
300
1:40
140
1.0
141
40.0
290
     0
  0
SCALE
  5
52
102
{ACAD_REACTORS
330
47
102
}
330
47
100
AcDbScale
 70
     0
300
1:50
140
1.0
141
50.0
290
     0
  0
SCALE
  5
53
102
{ACAD_REACTORS
330
47
102
}
330
47
100
AcDbScale
 70
     0
300
1:100
140
1.0
141
100.0
290
     0
  0
SCALE
  5
54
102
{ACAD_REACTORS
330
47
102
}
330
47
100
AcDbScale
 70
     0
300
2:1
140
2.0
141
1.0
290
     0
  0
SCALE
  5
55
102
{ACAD_REACTORS
330
47
102
}
330
47
100
AcDbScale
 70
     0
300
4:1
140
4.0
141
1.0
290
     0
  0
SCALE
  5
56
102
{ACAD_REACTORS
330
47
102
}
330
47
100
AcDbScale
 70
     0
300
8:1
140
8.0
141
1.0
290
     0
  0
SCALE
  5
57
102
{ACAD_REACTORS
330
47
102
}
330
47
100
AcDbScale
 70
     0
300
10:1
140
10.0
141
1.0
290
     0
  0
SCALE
  5
58
102
{ACAD_REACTORS
330
47
102
}
330
47
100
AcDbScale
 70
     0
300
100:1
140
100.0
141
1.0
290
     0
  0
SCALE
  5
59
102
{ACAD_REACTORS
330
47
102
}
330
47
100
AcDbScale
 70
     0
300
1/128" = 1'-0"
140
0.0078125
141
12.0
290
     0
  0
SCALE
  5
5A
102
{ACAD_REACTORS
330
47
102
}
330
47
100
AcDbScale
 70
     0
300
1/64" = 1'-0"
140
0.015625
141
12.0
290
     0
  0
SCALE
  5
5B
102
{ACAD_REACTORS
330
47
102
}
330
47
100
AcDbScale
 70
     0
300
1/32" = 1'-0"
140
0.03125
141
12.0
290
     0
  0
SCALE
  5
5C
102
{ACAD_REACTORS
330
47
102
}
330
47
100
AcDbScale
 70
     0
300
1/16" = 1'-0"
140
0.0625
141
12.0
290
     0
  0
SCALE
  5
5D
102
{ACAD_REACTORS
330
47
102
}
330
47
100
AcDbScale
 70
     0
300
3/32" = 1'-0"
140
0.09375
141
12.0
290
     0
  0
SCALE
  5
5E
102
{ACAD_REACTORS
330
47
102
}
330
47
100
AcDbScale
 70
     0
300
1/8" = 1'-0"
140
0.125
141
12.0
290
     0
  0
SCALE
  5
5F
102
{ACAD_REACTORS
330
47
102
}
330
47
100
AcDbScale
 70
     0
300
3/16" = 1'-0"
140
0.1875
141
12.0
290
     0
  0
SCALE
  5
60
102
{ACAD_REACTORS
330
47
102
}
330
47
100
AcDbScale
 70
     0
300
1/4" = 1'-0"
140
0.25
141
12.0
290
     0
  0
SCALE
  5
61
102
{ACAD_REACTORS
330
47
102
}
330
47
100
AcDbScale
 70
     0
300
3/8" = 1'-0"
140
0.375
141
12.0
290
     0
  0
SCALE
  5
62
102
{ACAD_REACTORS
330
47
102
}
330
47
100
AcDbScale
 70
     0
300
1/2" = 1'-0"
140
0.5
141
12.0
290
     0
  0
SCALE
  5
63
102
{ACAD_REACTORS
330
47
102
}
330
47
100
AcDbScale
 70
     0
300
3/4" = 1'-0"
140
0.75
141
12.0
290
     0
  0
SCALE
  5
64
102
{ACAD_REACTORS
330
47
102
}
330
47
100
AcDbScale
 70
     0
300
1" = 1'-0"
140
1.0
141
12.0
290
     0
  0
SCALE
  5
65
102
{ACAD_REACTORS
330
47
102
}
330
47
100
AcDbScale
 70
     0
300
1-1/2" = 1'-0"
140
1.5
141
12.0
290
     0
  0
SCALE
  5
66
102
{ACAD_REACTORS
330
47
102
}
330
47
100
AcDbScale
 70
     0
300
3" = 1'-0"
140
3.0
141
12.0
290
     0
  0
SCALE
  5
67
102
{ACAD_REACTORS
330
47
102
}
330
47
100
AcDbScale
 70
     0
300
6" = 1'-0"
140
6.0
141
12.0
290
     0
  0
SCALE
  5
68
102
{ACAD_REACTORS
330
47
102
}
330
47
100
AcDbScale
 70
     0
300
1'-0" = 1'-0"
140
12.0
141
12.0
290
     0
  0
ENDSEC
  0
EOF
